ISO-10303-21;
HEADER;
FILE_DESCRIPTION (( 'STEP AP203' ),
    '1' );
FILE_NAME ('MQWP-25.4-800.STEP',
    '2020-12-22T09:30:55',
    ( '' ),
    ( '' ),
    'SwSTEP 2.0',
    'SolidWorks 2020',
    '' );
FILE_SCHEMA (( 'CONFIG_CONTROL_DESIGN' ));
ENDSEC;

DATA;
#1 = MANIFOLD_SOLID_BREP ( 'Ðý×', #111 ) ;
#2 = EDGE_CURVE ( 'NONE', #104, #171, #69, .T. ) ;
#3 = APPROVAL_ROLE ( '' ) ;
#4 = CARTESIAN_POINT ( 'NONE',  ( 0.000000000000000000, 0.000000000000000000, 0.000000000000000000 ) ) ;
#5 = AXIS2_PLACEMENT_3D ( 'NONE', #93, #134, #122 ) ;
#6 = ORIENTED_EDGE ( 'NONE', *, *, #2, .T. ) ;
#7 = ORIENTED_EDGE ( 'NONE', *, *, #74, .F. ) ;
#8 = ORIENTED_EDGE ( 'NONE', *, *, #103, .T. ) ;
#9 = VERTEX_POINT ( 'NONE', #79 ) ;
#10 = FACE_OUTER_BOUND ( 'NONE', #170, .T. ) ;
#11 = LINE ( 'NONE', #148, #76 ) ;
#12 = DIRECTION ( 'NONE',  ( -1.000000000000000000, -0.000000000000000000, -0.000000000000000000 ) ) ;
#13 = PERSON_AND_ORGANIZATION ( #173, #88 ) ;
#14 = PERSON_AND_ORGANIZATION_ROLE ( 'creator' ) ;
#15 = CALENDAR_DATE ( 2020, 22, 12 ) ;
#16 = PERSON_AND_ORGANIZATION ( #173, #88 ) ;
#17 = APPLICATION_PROTOCOL_DEFINITION ( 'international standard', 'config_control_design', 1994, #61 ) ;
#18 = AXIS2_PLACEMENT_3D ( 'NONE', #34, #125, #20 ) ;
#19 = AXIS2_PLACEMENT_3D ( 'NONE', #60, #109, #54 ) ;
#20 = DIRECTION ( 'NONE',  ( 0.000000000000000000, 0.000000000000000000, -1.000000000000000000 ) ) ;
#21 = CC_DESIGN_SECURITY_CLASSIFICATION ( #46, ( #106 ) ) ;
#22 = DIRECTION ( 'NONE',  ( -1.000000000000000000, -0.000000000000000000, -0.000000000000000000 ) ) ;
#23 = DIRECTION ( 'NONE',  ( 0.000000000000000000, 0.000000000000000000, 1.000000000000000000 ) ) ;
#24 = CC_DESIGN_APPROVAL ( #85, ( #46 ) ) ;
#25 = PERSON_AND_ORGANIZATION ( #173, #88 ) ;
#26 = COORDINATED_UNIVERSAL_TIME_OFFSET ( 8, 0, .AHEAD. ) ;
#27 = DATE_AND_TIME ( #15, #124 ) ;
#28 = APPLICATION_CONTEXT ( 'configuration controlled 3d designs of mechanical parts and assemblies' ) ;
#29 = COORDINATED_UNIVERSAL_TIME_OFFSET ( 8, 0, .AHEAD. ) ;
#30 = CC_DESIGN_APPROVAL ( #42, ( #108 ) ) ;
#31 = DATE_AND_TIME ( #126, #64 ) ;
#32 = ORIENTED_EDGE ( 'NONE', *, *, #35, .F. ) ;
#33 = AXIS2_PLACEMENT_3D ( 'NONE', #172, #12, #161 ) ;
#34 = CARTESIAN_POINT ( 'NONE',  ( 1.224646799147353454E-16, 3.000000000000000000, 0.000000000000000000 ) ) ;
#35 = EDGE_CURVE ( 'NONE', #171, #104, #94, .T. ) ;
#36 = DIRECTION ( 'NONE',  ( -1.000000000000000000, -0.000000000000000000, -0.000000000000000000 ) ) ;
#37 = DIRECTION ( 'NONE',  ( -0.000000000000000000, 0.000000000000000000, 1.000000000000000000 ) ) ;
#38 = LOCAL_TIME ( 17, 30, 55.00000000000000000, #26 ) ;
#39 = CARTESIAN_POINT ( 'NONE',  ( 0.000000000000000000, 0.000000000000000000, 3.000000000000000000 ) ) ;
#40 = COORDINATED_UNIVERSAL_TIME_OFFSET ( 8, 0, .AHEAD. ) ;
#41 = APPROVAL_ROLE ( '' ) ;
#42 = APPROVAL ( #152, 'UNSPECIFIED' ) ;
#43 = DIRECTION ( 'NONE',  ( 1.000000000000000000, 0.000000000000000000, 0.000000000000000000 ) ) ;
#44 = ADVANCED_FACE ( 'NONE', ( #112 ), #137, .T. ) ;
#45 = DATE_TIME_ROLE ( 'creation_date' ) ;
#46 = SECURITY_CLASSIFICATION ( '', '', #114 ) ;
#47 = PERSON_AND_ORGANIZATION ( #173, #88 ) ;
#48 = ORIENTED_EDGE ( 'NONE', *, *, #133, .T. ) ;
#49 = CC_DESIGN_DATE_AND_TIME_ASSIGNMENT ( #31, #57, ( #46 ) ) ;
#50 = EDGE_LOOP ( 'NONE', ( #91, #89, #132, #90 ) ) ;
#51 = PRODUCT_RELATED_PRODUCT_CATEGORY ( 'detail', '', ( #53 ) ) ;
#52 = CARTESIAN_POINT ( 'NONE',  ( 0.9999999999999997780, 3.000000000000000000, 0.000000000000000000 ) ) ;
#53 = PRODUCT ( 'MQWP-25.4-800', 'MQWP-25.4-800', '', ( #139 ) ) ;
#54 = DIRECTION ( 'NONE',  ( 0.000000000000000000, 0.000000000000000000, 1.000000000000000000 ) ) ;
#55 = CC_DESIGN_PERSON_AND_ORGANIZATION_ASSIGNMENT ( #16, #71, ( #106 ) ) ;
#56 = PERSON_AND_ORGANIZATION_ROLE ( 'design_supplier' ) ;
#57 = DATE_TIME_ROLE ( 'classification_date' ) ;
#58 = PRODUCT_DEFINITION_SHAPE ( 'NONE', 'NONE',  #108 ) ;
#59 = ORIENTED_EDGE ( 'NONE', *, *, #133, .F. ) ;
#60 = CARTESIAN_POINT ( 'NONE',  ( 2.449293598294706907E-16, 0.000000000000000000, 0.000000000000000000 ) ) ;
#61 = APPLICATION_CONTEXT ( 'configuration controlled 3d designs of mechanical parts and assemblies' ) ;
#62 = CARTESIAN_POINT ( 'NONE',  ( 2.449293598294706907E-16, 3.673940397442059868E-16, -3.000000000000000000 ) ) ;
#63 = FACE_OUTER_BOUND ( 'NONE', #105, .T. ) ;
#64 = LOCAL_TIME ( 17, 30, 55.00000000000000000, #164 ) ;
#65 = CARTESIAN_POINT ( 'NONE',  ( 0.000000000000000000, 0.000000000000000000, 0.000000000000000000 ) ) ;
#66 = ADVANCED_FACE ( 'NONE', ( #10 ), #160, .F. ) ;
#67 = APPROVAL_DATE_TIME ( #151, #42 ) ;
#68 = DATE_AND_TIME ( #141, #99 ) ;
#69 = CIRCLE ( 'NONE', #33, 3.000000000000000000 ) ;
#70 = APPROVAL_STATUS ( 'not_yet_approved' ) ;
#71 = PERSON_AND_ORGANIZATION_ROLE ( 'creator' ) ;
#72 = APPROVAL_DATE_TIME ( #27, #78 ) ;
#73 = AXIS2_PLACEMENT_3D ( 'NONE', #52, #162, #37 ) ;
#74 = EDGE_CURVE ( 'NONE', #142, #171, #77, .T. ) ;
#75 = DATE_AND_TIME ( #86, #136 ) ;
#76 = VECTOR ( 'NONE', #36, 1000.000000000000000 ) ;
#77 = LINE ( 'NONE', #39, #129 ) ;
#78 = APPROVAL ( #70, 'UNSPECIFIED' ) ;
#79 = CARTESIAN_POINT ( 'NONE',  ( 0.9999999999999995559, 3.673940397442059868E-16, -3.000000000000000000 ) ) ;
#80 = FACE_OUTER_BOUND ( 'NONE', #131, .T. ) ;
#81 =( NAMED_UNIT ( * ) PLANE_ANGLE_UNIT ( ) SI_UNIT ( $, .RADIAN. ) );
#82 = APPLICATION_PROTOCOL_DEFINITION ( 'international standard', 'config_control_design', 1994, #28 ) ;
#83 = DESIGN_CONTEXT ( 'detailed design', #61, 'design' ) ;
#84 = PERSON_AND_ORGANIZATION ( #173, #88 ) ;
#85 = APPROVAL ( #87, 'UNSPECIFIED' ) ;
#86 = CALENDAR_DATE ( 2020, 22, 12 ) ;
#87 = APPROVAL_STATUS ( 'not_yet_approved' ) ;
#88 = ORGANIZATION ( 'UNSPECIFIED', 'UNSPECIFIED', '' ) ;
#89 = ORIENTED_EDGE ( 'NONE', *, *, #167, .T. ) ;
#90 = ORIENTED_EDGE ( 'NONE', *, *, #2, .F. ) ;
#91 = ORIENTED_EDGE ( 'NONE', *, *, #103, .F. ) ;
#92 = CYLINDRICAL_SURFACE ( 'NONE', #5, 3.000000000000000000 ) ;
#93 = CARTESIAN_POINT ( 'NONE',  ( 0.000000000000000000, 0.000000000000000000, 0.000000000000000000 ) ) ;
#94 = CIRCLE ( 'NONE', #19, 3.000000000000000000 ) ;
#95 = CARTESIAN_POINT ( 'NONE',  ( 0.9999999999999995559, 0.000000000000000000, 0.000000000000000000 ) ) ;
#96 = UNCERTAINTY_MEASURE_WITH_UNIT (LENGTH_MEASURE( 1.000000000000000082E-05 ), #174, 'distance_accuracy_value', 'NONE');
#97 = DIRECTION ( 'NONE',  ( -1.000000000000000000, -0.000000000000000000, -0.000000000000000000 ) ) ;
#98 = CIRCLE ( 'NONE', #119, 3.000000000000000000 ) ;
#99 = LOCAL_TIME ( 17, 30, 55.00000000000000000, #40 ) ;
#100 =( NAMED_UNIT ( * ) SI_UNIT ( $, .STERADIAN. ) SOLID_ANGLE_UNIT ( ) );
#101 =( GEOMETRIC_REPRESENTATION_CONTEXT ( 3 ) GLOBAL_UNCERTAINTY_ASSIGNED_CONTEXT ( ( #96 ) ) GLOBAL_UNIT_ASSIGNED_CONTEXT ( ( #174, #81, #100 ) ) REPRESENTATION_CONTEXT ( 'NONE', 'WORKASPACE' ) );
#102 = PERSON_AND_ORGANIZATION ( #173, #88 ) ;
#103 = EDGE_CURVE ( 'NONE', #9, #104, #11, .T. ) ;
#104 = VERTEX_POINT ( 'NONE', #62 ) ;
#105 = EDGE_LOOP ( 'NONE', ( #59, #156 ) ) ;
#106 = PRODUCT_DEFINITION_FORMATION_WITH_SPECIFIED_SOURCE ( 'ANY', '', #53, .NOT_KNOWN. ) ;
#107 = DIRECTION ( 'NONE',  ( 0.000000000000000000, 0.000000000000000000, 1.000000000000000000 ) ) ;
#108 = PRODUCT_DEFINITION ( 'UNKNOWN', '', #106, #83 ) ;
#109 = DIRECTION ( 'NONE',  ( -1.000000000000000000, -0.000000000000000000, -0.000000000000000000 ) ) ;
#110 = DIRECTION ( 'NONE',  ( -1.000000000000000000, -0.000000000000000000, -0.000000000000000000 ) ) ;
#111 = CLOSED_SHELL ( 'NONE', ( #115, #44, #157, #66 ) ) ;
#112 = FACE_OUTER_BOUND ( 'NONE', #50, .T. ) ;
#113 = CALENDAR_DATE ( 2020, 22, 12 ) ;
#114 = SECURITY_CLASSIFICATION_LEVEL ( 'unclassified' ) ;
#115 = ADVANCED_FACE ( 'NONE', ( #80 ), #92, .T. ) ;
#116 = AXIS2_PLACEMENT_3D ( 'NONE', #65, #97, #146 ) ;
#117 = CC_DESIGN_DATE_AND_TIME_ASSIGNMENT ( #68, #45, ( #108 ) ) ;
#118 = APPROVAL_ROLE ( '' ) ;
#119 = AXIS2_PLACEMENT_3D ( 'NONE', #95, #22, #23 ) ;
#120 = CARTESIAN_POINT ( 'NONE',  ( 0.9999999999999995559, 0.000000000000000000, 0.000000000000000000 ) ) ;
#121 = APPROVAL_PERSON_ORGANIZATION ( #47, #85, #118 ) ;
#122 = DIRECTION ( 'NONE',  ( 0.000000000000000000, 0.000000000000000000, 1.000000000000000000 ) ) ;
#123 = AXIS2_PLACEMENT_3D ( 'NONE', #120, #163, #107 ) ;
#124 = LOCAL_TIME ( 17, 30, 55.00000000000000000, #140 ) ;
#125 = DIRECTION ( 'NONE',  ( 1.000000000000000000, 0.000000000000000000, 0.000000000000000000 ) ) ;
#126 = CALENDAR_DATE ( 2020, 22, 12 ) ;
#127 = PERSON_AND_ORGANIZATION ( #173, #88 ) ;
#128 = PERSON_AND_ORGANIZATION_ROLE ( 'classification_officer' ) ;
#129 = VECTOR ( 'NONE', #110, 1000.000000000000000 ) ;
#130 = CC_DESIGN_APPROVAL ( #78, ( #106 ) ) ;
#131 = EDGE_LOOP ( 'NONE', ( #48, #8, #32, #7 ) ) ;
#132 = ORIENTED_EDGE ( 'NONE', *, *, #74, .T. ) ;
#133 = EDGE_CURVE ( 'NONE', #142, #9, #149, .T. ) ;
#134 = DIRECTION ( 'NONE',  ( -1.000000000000000000, -0.000000000000000000, -0.000000000000000000 ) ) ;
#135 = PLANE ( 'NONE',  #73 ) ;
#136 = LOCAL_TIME ( 17, 30, 55.00000000000000000, #29 ) ;
#137 = CYLINDRICAL_SURFACE ( 'NONE', #116, 3.000000000000000000 ) ;
#138 = CARTESIAN_POINT ( 'NONE',  ( 2.449293598294706907E-16, 0.000000000000000000, 3.000000000000000000 ) ) ;
#139 = MECHANICAL_CONTEXT ( 'NONE', #28, 'mechanical' ) ;
#140 = COORDINATED_UNIVERSAL_TIME_OFFSET ( 8, 0, .AHEAD. ) ;
#141 = CALENDAR_DATE ( 2020, 22, 12 ) ;
#142 = VERTEX_POINT ( 'NONE', #145 ) ;
#143 = SHAPE_DEFINITION_REPRESENTATION ( #58, #169 ) ;
#144 = CC_DESIGN_PERSON_AND_ORGANIZATION_ASSIGNMENT ( #127, #56, ( #106 ) ) ;
#145 = CARTESIAN_POINT ( 'NONE',  ( 0.9999999999999995559, 0.000000000000000000, 3.000000000000000000 ) ) ;
#146 = DIRECTION ( 'NONE',  ( 0.000000000000000000, 0.000000000000000000, 1.000000000000000000 ) ) ;
#147 = APPROVAL_PERSON_ORGANIZATION ( #13, #42, #41 ) ;
#148 = CARTESIAN_POINT ( 'NONE',  ( 0.000000000000000000, 3.673940397442059868E-16, -3.000000000000000000 ) ) ;
#149 = CIRCLE ( 'NONE', #123, 3.000000000000000000 ) ;
#150 = CC_DESIGN_PERSON_AND_ORGANIZATION_ASSIGNMENT ( #25, #168, ( #53 ) ) ;
#151 = DATE_AND_TIME ( #113, #38 ) ;
#152 = APPROVAL_STATUS ( 'not_yet_approved' ) ;
#153 = PERSON_AND_ORGANIZATION ( #173, #88 ) ;
#154 = CC_DESIGN_PERSON_AND_ORGANIZATION_ASSIGNMENT ( #102, #128, ( #46 ) ) ;
#155 = APPROVAL_DATE_TIME ( #75, #85 ) ;
#156 = ORIENTED_EDGE ( 'NONE', *, *, #167, .F. ) ;
#157 = ADVANCED_FACE ( 'NONE', ( #63 ), #135, .F. ) ;
#158 = ORIENTED_EDGE ( 'NONE', *, *, #35, .T. ) ;
#159 = APPROVAL_PERSON_ORGANIZATION ( #84, #78, #3 ) ;
#160 = PLANE ( 'NONE',  #18 ) ;
#161 = DIRECTION ( 'NONE',  ( 0.000000000000000000, 0.000000000000000000, 1.000000000000000000 ) ) ;
#162 = DIRECTION ( 'NONE',  ( -1.000000000000000000, 0.000000000000000000, -0.000000000000000000 ) ) ;
#163 = DIRECTION ( 'NONE',  ( -1.000000000000000000, -0.000000000000000000, -0.000000000000000000 ) ) ;
#164 = COORDINATED_UNIVERSAL_TIME_OFFSET ( 8, 0, .AHEAD. ) ;
#165 = CC_DESIGN_PERSON_AND_ORGANIZATION_ASSIGNMENT ( #153, #14, ( #108 ) ) ;
#166 = AXIS2_PLACEMENT_3D ( 'NONE', #4, #175, #43 ) ;
#167 = EDGE_CURVE ( 'NONE', #9, #142, #98, .T. ) ;
#168 = PERSON_AND_ORGANIZATION_ROLE ( 'design_owner' ) ;
#169 = ADVANCED_BREP_SHAPE_REPRESENTATION ( 'MQWP-25.4-800', ( #1, #166 ), #101 ) ;
#170 = EDGE_LOOP ( 'NONE', ( #158, #6 ) ) ;
#171 = VERTEX_POINT ( 'NONE', #138 ) ;
#172 = CARTESIAN_POINT ( 'NONE',  ( 2.449293598294706907E-16, 0.000000000000000000, 0.000000000000000000 ) ) ;
#173 = PERSON ( 'UNSPECIFIED', 'UNSPECIFIED', 'UNSPECIFIED', ('UNSPECIFIED'), ('UNSPECIFIED'), ('UNSPECIFIED') ) ;
#174 =( LENGTH_UNIT ( ) NAMED_UNIT ( * ) SI_UNIT ( .MILLI., .METRE. ) );
#175 = DIRECTION ( 'NONE',  ( 0.000000000000000000, 0.000000000000000000, 1.000000000000000000 ) ) ;
ENDSEC;
END-ISO-10303-21;
